MISTY - Cromok(bass tab)

Tuesday, 30 October 2012


-------------------------------------------------------------------------------
                             MISTY - Cromok
-------------------------------------------------------------------------------

Tabbed By : yum
e-mail: yum5783@gmail.com

Tuning: standard

G|---------------------------------------------------------------------------|
D|---------------------------------------------------4-2---------------------|
A|-2--222-2--222-2--222-3-2-3-2--------------------------3-------------------|
E|------------------------------3--333-3--333-0--000-------------------------| x7

G|---------------------------------------------------------------------------|
D|---------------------------------------------------------------------------|
A|-2--2-5-4----5-4----5-4-------2--2-5-4----5-4----5-4-------2---------------|
E|-----------3------2-----2-3-5-----------3------2-----2-3-5-----------------| x1

G|---------------------------------------------------------------------------|
D|---------------------------------------------------------------------------|
A|-2-5-4----5-4----5-4-------2--2-5-4----5-4----5-4-------2------------------|
E|--------3------2-----2-3-5-----------3------2-----2-3-5--------------------| x3

G|---------------------------------------------------------------------------|
D|---------------------------------------------------------------------------|
A|-2------4------5-----------2--2------4------5-----------2------------------|
E|---3-2----3-2----3-2-2-3-5------3-2----3-2----3-2-2-3-5--------------------| x4

G|---------------------------------------------------------------------------|
D|---------------------------------------------------------------------------|
A|---------3-3-3--2-2-3-2-0-0-0----------5-5-5--3-3-5-3-2-2-2-2--------------|
E|-0-0-0-0-----------------------0-0-0-0-------------------------------------| x4

G|-----------------------------------------------------------------------------------
D|-----------------------------------------------------------------------------------
A|-7777-7--7777-7------------------5555-5--5555-5------------------3333-3--3333-3----
E|-----------------5555-5--5555-5------------------3333-3--3333-3--------------------

  ---------------------------------------------------------------------------|
  ---------------------------------------------------------------------------|
  ---------------------------------------------------------------------------|
  -5555-5--5555-5--7777-7--7777-7--7--8--7--0--------------------------------| x4

G|---------------------------------------------------------------------------|
D|---------------------------------------------------------------------------|
A|-7-----5-----3-------------------------------------------------------------|
E|----5-----3-----5--7-------------------------------------------------------| x2

G|---------------------------------------------------------------------------|
D|---------------------------------------------------------------------------|
A|---------3-3-3--2-2-3-2-0-0-0----------5-5-5--3-3-5-3-2-2-2-2--------------|
E|-0-0-0-0-----------------------0-0-0-0-------------------------------------| x2

G|---------------------------------------------------------------------------|
D|---------------------------------------------------------------------------|
A|-2-22-2-2-2-55-5-5--5-55-5-5-5-33-3-3--3-33-3-3-3-33-3-3--7-5-7-77-7-7-7-77|
E|---------------------------------------------------------------------------|

G|---------------------------------------------------------------------------|
D|----------------------------------7----7-----------------------------------|
A|-77-7-333-3-3-333--3-3-3-33-3-3-3----8---7-77-7-7-7-77--7-7-33-3-3-3-33-3--|
E|---------------------------------------------------------------------------|

G|---------------------------------------------------------------------------|
D|----------------7----7--------------------------------------------------7--|
A|-3-3-3-33-3-3-3----8---7-77-7-7-7-77--7-7-33-3-3-3-33-3--3-3-3-33-3-3-3----|
E|---------------------------------------------------------------------------|

G|---------------------------------------------------------------------------|
D|----7-----7-----7-----7----7-----------------------------------------------|
A|-8-----8-----7-----7-----5---5-------2-------------------------------------|
E|-------------------------------2-3-5---------------------------------------|

G|---------------------------------------------------------------------------|
D|---------------------------------------------------------------------------|
A|-2------4------5-----------2--2------4------5-----------2------------------|
E|---3-2----3-2----3-2-2-3-5------3-2----3-2----3-2-2-3-5--------------------| x3

G|---------------------------------------------------------------------------|
D|---------------------------------------------------------------------------|
A|-2------4------5--------------------5-------3-------2---2--3--2--0---------|
E|---3-2----3-2----3-2-2-3-5--0---5-------3-------5--------------------------|

G|---------------------------------------------------------------------------|
D|-4-0-----2-0---------------------------------------------------------------|
A|-----2-2-----2-------------------------------------------------------------|
E|---------------------------------------------------------------------------|

G|---------------------------------------------------------------------------|
D|----------------------------------------------------------4-2--------------|
A|-2--22-2-2--22-2-2--22-2-3-2--3-2-----------------------------3------------|
E|----------------------------------3--33-3-3--33-3-0--00-0------------------|

G|---------------------------------------------------------------------------|
D|----------------------------------------------------------4-2---2----------|
A|-2--22-2-2--22-2-2--22-2-3-2--3-2-----------------------------3---3-2------|
E|----------------------------------3--33-3-3--33-3-0--00-0------------------|

| /  slide up
| \  slide down
| h  hammer-on
| p  pull-off
| ~  vibrato
| +  harmonic
| x  Mute note
===============================================================================

0 comments:

Post a Comment