Untuk beginners yang baru-baru nak try main gitar

Saturday, 3 November 2012



Untuk beginners yang baru-baru nak try main gitar tu elok sangatlah rujuk list itu dan Insya-Allah aku akan update dari semasa ke semasa. Anyway, good luck.
Ramai yang tak faham cara untuk baca gitar kod kat bawah ni, so aku buatkan simple guide untuk korang. Sila rujuk guide ini kalau tak reti nak baca kod yang ada dalam chord lists di bawah...Bulat hitam tu maknanya tekan kedudukan yang sama di fret dengan jari kiri. Bulat putih tu maknanya cuma petik sahaja tali tanpa tekan mana mana fret. Juga dipanggil “open note”.
                 Kalau tak ada tanda apa-apa, tak payah petik tali tu.

Basic Guitar Chords

Ini adalah antara kod paling asas untuk main gitar. Prektis kod C, Dm, F, G dan Am, dan aku gerenti korang boleh main berpuluh-puluh lagu melayu yang simple.

Power Chords

Power Chord selalu digunakan masa main lagu-lagu rock dan metal. Petik cuma 3 tali pada satu masa dan mute (matikan bunyi) tali yang lain. Nama kod ditentukan dengan not root (not pada tali yang dipetik pada #tali paling atas)
Untuk beginner aku amat syorkan prektis kod-kod yang aku tunjukkan tu especially yang dalam list Basic Chords. 7th kod (macam C7, D7 atau apa-apa yang ada nombor 7) tu sebenarnya sama dengan kod biasa, cuma ditambah kod ketujuh. Untuk permulaan tak ingat pun takpe. Tapi kalau nak bunyi sedap sebelum tukar kod, elok lah prektis nanti.
Okey selamat prektis!
Chord Lists : [A] | [B] | [C] | [D] | [E] | [F] | [G]

WAKE ME UP WHEN SEPTEMBER ENDS - Green Day

Thursday, 1 November 2012


MISTY - Cromok(bass tab)

Tuesday, 30 October 2012


-------------------------------------------------------------------------------
                             MISTY - Cromok
-------------------------------------------------------------------------------

Tabbed By : yum
e-mail: yum5783@gmail.com

Tuning: standard

G|---------------------------------------------------------------------------|
D|---------------------------------------------------4-2---------------------|
A|-2--222-2--222-2--222-3-2-3-2--------------------------3-------------------|
E|------------------------------3--333-3--333-0--000-------------------------| x7

G|---------------------------------------------------------------------------|
D|---------------------------------------------------------------------------|
A|-2--2-5-4----5-4----5-4-------2--2-5-4----5-4----5-4-------2---------------|
E|-----------3------2-----2-3-5-----------3------2-----2-3-5-----------------| x1

G|---------------------------------------------------------------------------|
D|---------------------------------------------------------------------------|
A|-2-5-4----5-4----5-4-------2--2-5-4----5-4----5-4-------2------------------|
E|--------3------2-----2-3-5-----------3------2-----2-3-5--------------------| x3

G|---------------------------------------------------------------------------|
D|---------------------------------------------------------------------------|
A|-2------4------5-----------2--2------4------5-----------2------------------|
E|---3-2----3-2----3-2-2-3-5------3-2----3-2----3-2-2-3-5--------------------| x4

G|---------------------------------------------------------------------------|
D|---------------------------------------------------------------------------|
A|---------3-3-3--2-2-3-2-0-0-0----------5-5-5--3-3-5-3-2-2-2-2--------------|
E|-0-0-0-0-----------------------0-0-0-0-------------------------------------| x4

G|-----------------------------------------------------------------------------------
D|-----------------------------------------------------------------------------------
A|-7777-7--7777-7------------------5555-5--5555-5------------------3333-3--3333-3----
E|-----------------5555-5--5555-5------------------3333-3--3333-3--------------------

  ---------------------------------------------------------------------------|
  ---------------------------------------------------------------------------|
  ---------------------------------------------------------------------------|
  -5555-5--5555-5--7777-7--7777-7--7--8--7--0--------------------------------| x4

G|---------------------------------------------------------------------------|
D|---------------------------------------------------------------------------|
A|-7-----5-----3-------------------------------------------------------------|
E|----5-----3-----5--7-------------------------------------------------------| x2

G|---------------------------------------------------------------------------|
D|---------------------------------------------------------------------------|
A|---------3-3-3--2-2-3-2-0-0-0----------5-5-5--3-3-5-3-2-2-2-2--------------|
E|-0-0-0-0-----------------------0-0-0-0-------------------------------------| x2

G|---------------------------------------------------------------------------|
D|---------------------------------------------------------------------------|
A|-2-22-2-2-2-55-5-5--5-55-5-5-5-33-3-3--3-33-3-3-3-33-3-3--7-5-7-77-7-7-7-77|
E|---------------------------------------------------------------------------|

G|---------------------------------------------------------------------------|
D|----------------------------------7----7-----------------------------------|
A|-77-7-333-3-3-333--3-3-3-33-3-3-3----8---7-77-7-7-7-77--7-7-33-3-3-3-33-3--|
E|---------------------------------------------------------------------------|

G|---------------------------------------------------------------------------|
D|----------------7----7--------------------------------------------------7--|
A|-3-3-3-33-3-3-3----8---7-77-7-7-7-77--7-7-33-3-3-3-33-3--3-3-3-33-3-3-3----|
E|---------------------------------------------------------------------------|

G|---------------------------------------------------------------------------|
D|----7-----7-----7-----7----7-----------------------------------------------|
A|-8-----8-----7-----7-----5---5-------2-------------------------------------|
E|-------------------------------2-3-5---------------------------------------|

G|---------------------------------------------------------------------------|
D|---------------------------------------------------------------------------|
A|-2------4------5-----------2--2------4------5-----------2------------------|
E|---3-2----3-2----3-2-2-3-5------3-2----3-2----3-2-2-3-5--------------------| x3

G|---------------------------------------------------------------------------|
D|---------------------------------------------------------------------------|
A|-2------4------5--------------------5-------3-------2---2--3--2--0---------|
E|---3-2----3-2----3-2-2-3-5--0---5-------3-------5--------------------------|

G|---------------------------------------------------------------------------|
D|-4-0-----2-0---------------------------------------------------------------|
A|-----2-2-----2-------------------------------------------------------------|
E|---------------------------------------------------------------------------|

G|---------------------------------------------------------------------------|
D|----------------------------------------------------------4-2--------------|
A|-2--22-2-2--22-2-2--22-2-3-2--3-2-----------------------------3------------|
E|----------------------------------3--33-3-3--33-3-0--00-0------------------|

G|---------------------------------------------------------------------------|
D|----------------------------------------------------------4-2---2----------|
A|-2--22-2-2--22-2-2--22-2-3-2--3-2-----------------------------3---3-2------|
E|----------------------------------3--33-3-3--33-3-0--00-0------------------|

| /  slide up
| \  slide down
| h  hammer-on
| p  pull-off
| ~  vibrato
| +  harmonic
| x  Mute note
===============================================================================

Cromok - Another You tab(that is tabs)

UG app


This is a Song by Cromok. One of the gigantic  Heavy Metal Band in Malaysia, 
(South East Asia).


*This is by far the best Cromok Riff ever made ( And it's damn great).*
Too sad it is only music, no lyric... :-)


Riff A (intro) 

e|-7-----7---7-----|-------------0-|---------2-2h3p2p0-|-0---------0-----|
B|---0-------------|-1-------3-----|-3-----------------|---0---------0---|
G|-----0-----------|---0---0---0---|---2---2-----------|---------------0-|
D|-----------------|-----2---------|-----4-------------|-----------------|
A|-----------------|-3-------------|-------------------|-----2-----------|
E|-0-------0---2\3-|---------------|-------------------|-------3-0-------|

e|-7-----7---7-----|-------------0-|---------2-2h3p2p0-|-3-----5-3-------|
B|---0-------------|-1-------3-----|-3-----------------|---0-------0---0-|
G|-----0-----------|---0---0---0---|---2---2-----------|-----0-------0---|
D|-----------------|-----2---------|-----4-------------|-----------------|
A|-----------------|-3-------------|-------------------|-----------------|
E|-0-------0---2\3-|---------------|-------------------|-0---------------|


Riff B 

e|-12-----10-8---7---|-8-----7-5-------|---------2-2h3p0-|-3-----5-3-------|
B|----0--------0---0-|---5-------8-7-5-|-------0---------|---0-------0---0-|
G|------0------------|-----5-----------|-----2-----------|-----0-------0---|
D|-------------------|-----------------|---1-------------|-----------------|
A|-------------------|-0---------------|-2---------------|-----------------|
E|-0-----------------|-----------------|-----------------|-0---------------|

e|-12-----10-8---7---|-8-----7-5-------|---------2-2h3p0-|---0-------|
B|----0--------0---0-|---5-------8-7-5-|-------0---------|-0---------|
G|------0------------|-----5-----------|-----1-----------|-----------|
D|-------------------|-----------------|---1-------------|-----------|
A|-------------------|-0---------------|-2---------------|-----2-----|
E|-0-----------------|-----------------|-----------------|-0-----3-0-|


Riff C (2x) 

e|-15-----14-15---14----|---------------------|----------10-12----10----|-8-----5-7-------|
B|----0---------0----12-|-13------12-13-------|-10----10-------10----10-|---0-------0---0-|
G|------0---------------|----9----------9----9|----11-------------------|-----0-------0---|
D|----------------------|------10---------10--|--0----------------------|-----------------|
A|----------------------|-0-------------------|-------------------------|-----------------|
E|-0--------------------|---------------------|-------------------------|-0---------------|


Ulang Riff B 

Riff D (2x) 

e|-7------7-7-----7-|-8-----8-8-----|-10-10-10-10-10-10-10-|-8---7h8-5-7-------|
B|-----8--------8---|-----5-------5-|----------------------|---0---------0---0-|
G|---9--------9-----|---5-------5---|-7--7--7--7--7--7--7--|-0-------------0---|
D|------------------|---------------|----------------------|-------------------|
A|------------------|---------------|----------------------|-------------------|
E|------------------|---------------|----------------------|-------------------|


Riff E   

e|-12-----10-8---7---|-8-----7-5-------|---------2-2h3p0-|-3/5-5/7-7-------|
B|----0--------0---0-|---5-------8-7-5-|-3---------------|-----------0---0-|
G|------0------------|-----5-----------|---2---2---------|-------------0---|
D|-------------------|-----------------|-----4-----------|-----------------|
A|-------------------|-0---------------|-----------------|-----------------|
E|-0-----------------|-----------------|-----------------|-----------------|

e|-12-----10-8---7---|-8-----7-5-------|---------2-2h3p0-|---0-------|
B|----0--------0---0-|---5-------8-7-5-|-3---------------|-0---------|
G|------0------------|-----5-----------|---2---2---------|-----------|
D|-------------------|-----------------|-----4-----------|-----------|
A|-------------------|-0---------------|-----------------|-----2-----|
E|-0-----------------|-----------------|-----------------|-0-----3-0-|


Riff F 

e|-5/7-------------|-------------0-|---------2-3-2h3p2p0-|---0---------0-----|
B|-----0-----------|-1-------3-----|-3-------------------|---------------0---|
G|-------0---------|---0---0---0---|---2---2-------------|-----------------0-|
D|-----------------|-----2---------|-----4---------------|-------------------|
A|-----------------|-3-------------|---------------------|------2------------|
E|-0-------0---2\3-|---------------|---------------------|-0------3-0--------|

e|-5/7-------------|-------------0-|---------2---2h3p2p0-|-3---7\5-3-------|
B|-----0-----0-----|-1-------3-----|-3---------0---------|---0-------0---0-|
G|-------0---------|---0---0---0---|---2---2-------------|-------------0---|
D|-----------------|-----2---------|-----4---------------|-----------------|
A|-----------------|-3-------------|---------------------|-----------------|
E|-0-------0---2\3-|---------------|---------------------|-0---------------|


Riff G 

e|-12-----10-8---7---|-8-----7-5-------|---------2---2h3p0---|-3-----5-3-------|
B|----0--------0---0-|---5-------8-7-5-|-------0---0---------|---0-------0---0-|
G|------0------------|-----5-----------|-----2---------------|-----0-------0---|
D|-------------------|-----------------|---1-----------------|-----------------|
A|-------------------|-0---------------|-2-------------------|-----------------|
E|-0-----------------|-----------------|---------------------|-0---------------|

e|-12-----10-8---7---|-8-----7-5-------|---------2---2h3-2-0-0-|-------|
B|----0--------0---0-|---5-------8-7-5-|-------0---0-------0---|-------|
G|------0------------|-----5-----------|-----2-----------------|-------|
D|-------------------|-----------------|---1-------------------|-------|
A|-------------------|-0---------------|-2---------------------|-2-----|
E|-0-----------------|-----------------|-----------------------|---3-0-|


Riff H 

e|-------------0---|-8-----7-5-------|-------------5-|-7---------------------------5---5-----7-5-|
B|-------0-3-----0-|---5-------5---5-|-------5-7-----|---5---8-7-5-----5-------------8---5-------|
G|-----------0-----|-----5-------5---|-----7-----7---|-----5-------7-5---5---5-7-5---------5-----|
D|-----5-----------|-----------------|---7-----------|---------------------5---------------------|
A|---5-------------|-0---------------|-5-------------|-0-----------------------------------------|
E|-3---------------|-----------------|---------------|-------------------------------------------|

e|-------------3---3-|---------5-7-----0---------0--0-----|
B|-----------5---5---|-7-5-7-8-----8-7---------0-----0----|
G|---------5---------|-----------------------0-----0--0---|
D|-------5-----------|---------------------2--------------|
A|-0-2-3-------------|-------------------2----------------|
E|-------------------|-----------------0----------------0-|


Riff Outro

e|-7-----7---7-----|-------------0-|---------2-2h3p2p0-|-0---------0-----|
B|---0-------------|-1-------3-----|-3-----------------|---0---------0---|
G|-----0-----------|---0---0---0---|---2---2-----------|---------------0-|
D|-----------------|-----2---------|-----4-------------|-----------------|
A|-----------------|-3-------------|-------------------|-----2-----------|
E|-0-------0---2\3-|---------------|-------------------|-------3-0-------|

e|-5/7-----------|-------------0-|---------2-2h3p2p0-|-3-----5-3-------|
B|-----0---------|-1-------3-----|-3-----------------|---0-------0---0-|
G|-------0-------|---0---0---0---|---2---2-----------|-----0-------0---|
D|---------------|-----2---------|-----4-------------|-----------------|
A|---------2-----|-3-------------|-------------------|-----------------|
E|-0---------2\3-|---------------|-------------------|-0---------------|

e|-12-----10-8---7---|-8-----7-5-------|---------2-2h3p0-|-3-----5-3-------|
B|----0--------0---0-|---5-------8-7-5-|-------0---------|---0-------0---0-|
G|------0------------|-----5-----------|-----2-----------|-----0-------0---|
D|-------------------|-----------------|---1-------------|-----------------|
A|-------------------|-0---------------|-2---------------|-----------------|
E|-0-----------------|-----------------|-----------------|-0---------------|

e|-12-----10-8---7---|-8-----7-5-------|---------2-------2-|-3-2-0---------|
B|----0--------0---0-|---5-------8-7-5-|-------0---0---0-0-|---------------|
G|------0------------|-----5-----------|-----1-------2---2-|---------------|
D|-------------------|-----------------|---1-------------1-|---------------|
A|-------------------|-0---------------|-2---------------2-|---------2-----|
E|-0-----------------|-----------------|-------------------|-----------3-0-|

Nothing Else Matters chords - metalica

Intro:
Em...
Em - Em - D - C

Em                 D   C
So close no matter how far
Em                          D   C
couldnt be much more from the heart
Em                   D   C
forever trusting who we are
G    B7         Em
and nothing else matters

never opened myself this way
life is ours, we live it our way
all these words I dont just say
and nothing else matters

trust I seek and I find in you
every day for us something new
Em                 D        C
open mind for a different view
G     B7         Em      C  A
and nothing else matters

   chorus:
   D                        C  A
   never cared for what they do
   D                        C  A
   never cared for what they know
   D     Em
   but I know

so close no matter how far
couldnt be much more from the heart
forever trusting who we are
and nothing else matters

   chorus (see above)

never opened myself this way
life is ours, we live it our way
all these words I dont just say

trust I seek and I find in you
every day for us something new
open mind for a different view
and nothing else matters

   Chorus:
   never cared for what they say
   never cared for games they play
   never cared for what they do
   never cared for what they know
   and I know

so close no matter how far
couldnt be much more from the heart
forever trusting who we are
no nothing else matters

Fade To Black (MetallicA) easy version by qayyum

                           
Acustic Intro :

 
e |----------------|---------------|---------------|---------------|
B |----------------|---------------|---------------|---------------|
G |-----0----------|----0----------|----0----------|----2----------|
D |---4---4---4---4|--4---4---4---4|--4---4---4---4|--2---2---2---2|
A |-2-------2---5--|0-------0---5--|2-------2---5--|4-------4---0--|
E |----------------|---------------|---------------|---------------|


Repeat 5 times


pre-verse melody :  Am                   C               G                  Em  : 4x


1st verse : 

   Am                   C               G                  Em

   Life it seems will fade away,        drifting further every day.

   Am                   C               G                  Em

   Getting lost within myself,          nothing matters, no one else.

   Am                   C               G                  Em

   I have lost the will to live,        simply nothing more to give.
 
   Am                   C               G

   There is nothing more for me.        Need the end to set__
 
   E

   __me free            A          C     A    D5    E5

   
            C5          A          C        G#5   F#5    E


                        A          C     A    D5    E5


            C5          A          C        G#5   F#5    E



pre-verse melody : Am                   C               G                  Em  : 4x
   
     
2d verse : 

   Am                   C               G                  Em

   Things not what they used to be,     missing one inside of me.

   Am                   C               G                  Em

   Deathly lost, this can't be real,    cannot stand this hell I feel.

   Am                   C               G                  Em

   Emptiness is filling me,             to the point of agony.

   Am                   C               G

   Growing darkness taking dawn,        I was me, but now__

   E                     A                     C
   
   __he's           gone____________

    
                        A  D5  E5
   
            C5          A          C        G#5   F#5    E

                        A          C     A    D5    E5

            C5          A          C        G#5   F#5    E


pre-verse melody : 


           
            D5 E5       D5 E5   G5  F#5  D5
 
G |-------------------------------------4|
D |--9--9--9--7--7--7--5--5--5--4--4--4--|

            D5 E5       D5 E5   G5  F#5  D5
 
G |-------------------------------------4|
D |--9--9--9--7--7--7--5--5--5--4--4--4--|



3rd verse :

   D5 E5                        D5  E5      G5  F#5          D5

   No one but me                can save myself but it's too late

   D5  E5                       D5    E5       G5  F#5   D5

   Now I can't think,           think why I should even try.


            D5 E5       D5 E5   G5  F#5  D5


            D5 E5       D5 E5   G5  F#5  D5


   D5 E5                        D5  E5      G5  F#5          D5

   Yesterday seems              as though it never existed

   D5  E5                       D5    E5       G5  F#5   D5

   Death greats me warm,        now I will just say goodbye.

rythm mode:     tttt-r      tttt-t-      t-r       -t-t-

          D5-E5             D5-E5-      G5-F#5     -D5-

G |-------------------------------------4|
D |--9--9--9--7--7--7--5--5--5--4--4--4--|


mode:     tttt-r           tttt-t-   -r tttr-t-       -t-t-
          D5-E5             D5-E5-    -G5-F#5-        -D5-

G |-------------------------------------4|
D |--9--9--9--7--7--7--5--5--5--4--4--4--|


By Me : 

BARE` !!!

D |---4-5-4-2-0-0--|---4-5---------|---4-5-4-2-----|---4-5-4-2-----|
A |-2--------------|-2-------------|-2-------------|-2-------------| CONTINUE, REPAT FEW TIMES !



    N.C. (no chord)                      D5 E5             D5 E5    G5  F#5


    D5                       N.C.


    N.C.       E5     N.C.         G5  F#5  N.C.        D


    A5        G5       A5       B5


    G5        B5       A5       B5   


    A5        G5       A5       A5
 

    B5        A5       G5


Note* : always when you see an : D5 E5             D5 E5    G5  F#5

there must be an :

G |-------------------------------------4|
D |--9--9--9--7--7--7--5--5--5--4--4--4--|

too :)

Metallica – one

Metallica – one
Tuning:E
 
Intro:
Bm Gmaj7 Bm
Gmaj7 Bm D/A Gmaj7 
Bm Gmaj7 Bm Gmaj7
Bm D/A Gmaj7
Bm Gmaj7 Bm Gmaj7
Bm D/A Gmaj7 
Bm Gmaj7 Bm Gmaj7
Bm D/A Gmaj7
 
Em F#m G5 A5 D
G F Em 
 
Bm          Gmaj7
I can't remember   anything
Bm                     Gmaj7
Can't tell if this is true or dream
Bm                  D/A
Deep down inside I feel to scream
Gmaj7
This terrible silence stops me
 
Bm                  Gmaj7
Now that the war is through with me
Bm               Gmaj7
I'm waking up, I cannot see
Bm                     D/A
That there is not much left of me
Gmaj7
Nothing is real but pain now
 
 G5  A5   B5   A5 G5 F#5  B5      A5
Hold my breath as I wish for death
B5 C#5 B5  A5
       Oh please, God, wake me
 
Bm          Gmaj7
Back in the womb it's much too real
Bm                     Gmaj7
In pumps life that I must feel
Bm                  D/A
But can't look forward to reveal
Gmaj7
Look to the time when I'll live
 
Bm                  Gmaj7
Fed through the tube that sticks in me
Bm               Gmaj7
Just like a wartime novelty
Bm                     D/A
Tied to machines that make me be
Gmaj7
Cut this life off from me
 
G5  A5   B5   A5 G5 F#5  B5      A5
Hold my breath as I wish for death
B5 C#5 B5  A5
       Oh please, God, wake me
Solo:
D G F Em
D G F Em
Em D G F
Em D G F
 
Em     G5 A5     B5 A5  G5   F#5   B5     A5
      Now the world is gone, I'm just one
B5 C#5 B5  A5   B5  C#5
       Oh God, help me
G5   A5  B5    A5 G5 F#5   B5      A5
Hold my breath as I  wish for death
B5 C#5 B5   A5     B5   C#5 G5
       Oh please, God, help me
 
A5 B5 A5 G5 F#5 B5
 
Am G B C
C/E D B5 C5 C/E
E5 F5
 
E5
Darkness imprisoning me
All that I see
            F5
Absolute horror
E5
I cannot live
I cannot die
Trapped in myself
             F5
Body my holding cell
 
E5 F5 E5
E5 F5 E5
 
E5
Landmine has taken my sight
Taken my speech
         F5
Taken my hearing
E5
Taken my arms
Taken my legs
Taken my soul
             F5
Left me with life in hell
 
E5 F5
 
Solo
E5 F5 E5
F5 G5 E5
F5 G5
G5 C#5
F5 G5
C#5 F5 G5 
F5 
G5 F5
E5 F5
E5
E5 F5
E5 F5 E5
F5 E5 F5
G5 E5
F5 G5 E5
F5 E5

The Unforgiven - Metallica

 
#----------------------------------PLEASE NOTE---------------------------------#
#This file is the author's own work and represents their interpretation of the #
#song. You may only use this file for private study, scholarship, or research. #
#------------------------------------------------------------------------------##
From:qayyum 
 
The Unforgiven - Metallica

Am                    Em         D               Am
New blood joins this earth  and quickly he's sub-dued.
                         Em         D                      Am
Through constant pain disgrace, the young boy learns their rules.
                          Em       D                 Am
With time the child draws in this whipping boy done wrong.
                     Em           D                   Am
Deprived of all his thoughts, the young man struggles on and  on.
                   C             G        C               G
He knows,  oo, a  vow unto  his own that never from this day
      C                    G    E
 his will they'll take a - way.

CHORUS:
 Am        C               G           Em                          Am
What I've felt, what I've known never shined through in what I've shown.
 Am   C          G          E                   Am
Never be. Never see. Won't see what might have been.
 Am        C               G           Em                          Am
What I've felt, what I've known,never shined through in what I've shown.
 Am    C          G        E            Am
Never free. Never me. So I dub the unforgiven.

 Am                  Em       D             Am
They dedicate their lives to running all of his
                        Em         D            Am
He tries to please them all, this bitter man he is
                         Em         D             Am
Throughout the life the same, he's battled constantly
                      Em     D              Am
This fight he cannot win. A tired man they see no longer cares.
     C            G           C           G
The old man then prepares to die regretfully
      C              G   E
That old man here is me.

 Chorus...


Please correct me if I'm wrong....

HI.. my name is Qayyum, i want to show you to the my guitar......

back the topic.. im open this blog for showing the tabs, guitar chords and lyrics... 
that so easy ok ... so enjoy!!!